12345678987654321lkj12345678987654321lkj

Main News Audio Art Favorites Reviews Stats 3 Fans

Contact Info / Websites

All 5 game Reviews


Crystal Story Crystal Story

Rated 4.5 / 5 stars

OMG

Warp 7 is the name of my first robotics team...



Enigmata Enigmata

Rated 5 / 5 stars

great game

alot similar yet alot diferent from cube colossus. 10/10 5/5. great artwork. I was wondering if you wouldn't mind doing some artwork for my game(currently only destined for game maker)? PM answer



Adagio Adagio

Rated 4.5 / 5 stars

make another

but with more songs and 6 (a,s,d,f,g,h) keys. lik a guitar



Punk-o-matic Punk-o-matic

Rated 5 / 5 stars

what?

this helped me finish the two songs i was writing. They are
Infinity:
3---3-------0--86---888-86-1-
--1---3---3---2---5---6-9---9-9
-1---3---3---0---2---79--6---
b4---c---a---5-b7-b--2---4---
2---a---8---9---8-3-4---a45-4
---0-----6-5-0---4---c-----3-6--
-4-09-8--a---7-4-0----2-1-----
0---1---8-6-0---4-7-----1---8-
a---4-9-4-5--9--
And (closest i could get to) Chaotic Nemesis:
------6---7765-2---4-1---1---3
--8--74-1--4-0---2-------1---5-
0---9---4-86--9---0-----7-3-a-
--4---a---2---a-----8---6-8---b-
-1---0--4---7-5-0---a---6---9--
-b2-------------a---8-0---7-4-a-
--a---0---8--a2-a---0---0---a--
-5-----6-7-42-0---627-0-----
9---5-----
Thx man and keep on punking(i think?)
hope you get sequel up soon.XD



Pandemic II Pandemic II

Rated 5 / 5 stars

amazing

great job. next time i'd like to see the abilitie to hide your disease or to combine diseases(aka hpv and aids(one aids(Ha)the other)). otherwise great job and keep it up.


People find this review helpful!